• In diretta da GamesVillage.it
    • News
    • -
    • In Evidenza
    • -
    • Recensioni
    • -
    • RetroGaming
    • -
    • Anteprime
    • -
    • Video
    • -
    • Cinema

Visualizzazione risultati da 1 a 15 di 15

Discussione: Tablature e programmi

Cambio titolo
  1. #1
    Who is Solid Snake? L'avatar di Tony47
    Registrato il
    12-03
    LocalitÓ
    Dolinovodno!!
    Messaggi
    493

    Domanda Tablature e programmi

    Dove posso scaricare qualche programma per convertire le tablature in pentagrammi con le note???Risp!!!

  2. #2
    Utente L'avatar di Epyon87
    Registrato il
    07-04
    LocalitÓ
    Ferrara
    Messaggi
    2.478
    Tony47
    Dove posso scaricare qualche programma per convertire le tablature in pentagrammi con le note???Risp!!!
    Scaricati Guitar Pro come programma e il sito per scaricarsi tutte le tabulature di quel programma Ŕ questo:http://www.mysongbook.com/hp-home.htm

  3. #3
    Who is Solid Snake? L'avatar di Tony47
    Registrato il
    12-03
    LocalitÓ
    Dolinovodno!!
    Messaggi
    493
    Grazie sei il mio salvatore!!!

  4. #4
    Who is Solid Snake? L'avatar di Tony47
    Registrato il
    12-03
    LocalitÓ
    Dolinovodno!!
    Messaggi
    493
    Da che sito posso scaricare guitar pro? su google nn ho trovato niente...RISP.

  5. #5
    Utente L'avatar di fernando
    Registrato il
    07-03
    LocalitÓ
    sando(mi)
    Messaggi
    5.109
    Grazie

  6. #6
    Who is Solid Snake? L'avatar di Tony47
    Registrato il
    12-03
    LocalitÓ
    Dolinovodno!!
    Messaggi
    493
    annullo la domanda: ho guitar pro Ma come faccio ad aprire le tablature in formato txt???

  7. #7
    Utente L'avatar di Epyon87
    Registrato il
    07-04
    LocalitÓ
    Ferrara
    Messaggi
    2.478
    Tony47
    annullo la domanda: ho guitar pro Ma come faccio ad aprire le tablature in formato txt???
    Una volta che hai guitar pro e almeno una file guitar pro basta che clicchi 2 volte sul file oppure lo apri direttamente dal programma....quel programma ti fa sentire la canzone e ti da l'opportunitÓ di ascoltare ogni singolo strumento e per ogni singolo strumento c'Ŕ la sua tabulatura....io mi trovo molto bene soprattutto perchŔ posso ascoltare la canzone con tutti gli strumenti e se voglio posso mettere in muto solo la chitarra e provare a suonare la canzone io con gli altri strumenti senza sentire l'altra chitarra in sottofondo!!e poi le tabs pesano poco!

  8. #8
    Utente L'avatar di Alebass_89
    Registrato il
    06-03
    LocalitÓ
    Cavalese
    Messaggi
    4.282
    C'Ŕ anche Power Tab
    Le tablature le scarichi da www.powertabs.net

  9. #9
    aka "Music~Man" L'avatar di Valiant
    Registrato il
    10-02
    Messaggi
    24.562
    Citazione Tony47
    annullo la domanda: ho guitar pro Ma come faccio ad aprire le tablature in formato txt???
    guitar pro apre solo i file .gpt, i file .txt li apri anche con word

  10. #10
    Who is Solid Snake? L'avatar di Tony47
    Registrato il
    12-03
    LocalitÓ
    Dolinovodno!!
    Messaggi
    493
    I file txt. quando sono cosý!!!
    #----------------------------------PLEASE
    NOTE---------------------------------#
    #This file is the author's own work and represents their interpretation of
    the #
    #song. You may only use this file for private study, scholarship, or
    research. #
    #------------------------------------------------------------------------------##

    TOXICITY
    As recorded by System of a Down
    (From the 2002 Album TOXICITY)

    Transcribed by Ettore Settanni


    Gtr II (C G C F A D) - 'system if a down'

    3/4
    Gtr II
    E E E E E E E E E E E E E E E E E E
    |-------------------|-------------------|-------------------|
    |-------------------|-------------------|-------------------|
    |----14----14----14-|----14----14----14-|----17----17----17-|
    |-12----12----12----|-12----12----12----|-15----15----15----|
    |-------------------|-------------------|-------------------|
    |-------------------|-------------------|-------------------|


    E E E E E E E E E E E E E E E E E E E E E E E
    E
    |-------------------|-------------------|-------------------|-------------------|
    |-------------------|-------------------|-------------------|-------------------|
    |----17----17----17-|----14----14----14-|-15----15-14----14-|----17----19----19-|
    |-15----15----15----|-12----12----12----|----12-------12----|-15----15----15----|
    |-------------------|-------------------|-------------------|-------------------|
    |-------------------|-------------------|-------------------|-------------------|


    Gtr II
    E E E E E E Q H S S S S S Q..
    |---------------------||-----------|-----------------|
    |---------------------||o----------|-----------------|
    |-17-----17-15-----15-||-----------|-----------------|
    |----15---------15----||---0-------|-----------------|
    |---------------------||o--0-------|-----------------|
    |---------------------||---0-------|-3-2-0-2-0-------|


    D.C.
    H +Q H +Q S S S S S S S S S S S S
    |-----------|------------||--------------------------|
    |-----------|-----------o||--------------------------|
    |-----------|------------||--------------------------|
    |-8----(8)--|-7----(7)---||--------------------------|
    |-8----(8)--|-7----(7)--o||--------------------------|
    |-8----(8)--|-7----(7)---||--3-2-0-2-0-0-3-2-0-2-0-0-|


    S S S S S S S S S S S S H +Q H +Q
    |-------------------------|------------|-----------|
    |-------------------------|------------|-----------|
    |-------------------------|------------|-----------|
    |-------------------------|--8----(8)--|-7----(7)--|
    |-------------------------|--8----(8)--|-7----(7)--|
    |-3-2-0-2-0-0-3-2-0-2-0-0-|--8----(8)--|-7----(7)--|


    Q H S S S S S Q.. H +Q H +Q
    |---------|-----------------|------------|-----------|
    |---------|-----------------|------------|-----------|
    |---------|-----------------|------------|-----------|
    |-0-------|-----------------|--8----(8)--|-7----(7)--|
    |-0-------|-----------------|--8----(8)--|-7----(7)--|
    |-0-------|-3-2-0-2-0-------|--8----(8)--|-7----(7)--|


    $
    E E E E E E E E E E E E
    |-------------------|-------------------|
    |-------------------|-------------------|
    |----14----14----14-|----14----14----14-|
    |-12----12----12----|-12----12----12----|
    |-------------------|-------------------|
    |-------------------|-------------------|


    E E E E E E E E E E E E E E E E E E
    |-------------------|-------------------|-------------------|
    |-------------------|-------------------|-------------------|
    |----17----17----17-|----17----17----17-|----14----14----14-|
    |-15----15----15----|-15----15----15----|-12----12----12----|
    |-------------------|-------------------|-------------------|
    |-------------------|-------------------|-------------------|


    E E E E E E E E E E E E E E E E E E
    |-------------------|-------------------|-------------------|
    |-------------------|-------------------|-------------------|
    |-15----15-14----14-|----17----19----19-|-17----17-15----15-|
    |----12-------12----|-15----15----15----|----15-------15----|
    |-------------------|-------------------|-------------------|
    |-------------------|-------------------|-------------------|


    E E E E E E E E E E E E
    ||--------------------|-------------------|
    ||o-------------------|-------------------|
    ||-----14----14----14-|----14----14----14-|
    ||--12----12----12----|-12----12----12----|
    ||o-------------------|-------------------|
    ||--------------------|-------------------|


    E E E E E E E E E E E E E E E E E E
    |----8----12p8----|-13p8----12p8----|-------------------|
    |-----------------|-----------------|-------------------|
    |-10---10------10-|------10------10-|----14----14----14-|
    |-----------------|-----------------|-12----12----12----|
    |-----------------|-----------------|-------------------|
    |-----------------|-----------------|-------------------|


    E E E E E E E E E E E E E E E E E E Q H
    |-------------------|-------------------|--------------------||-||-------|
    |-------------------|-------------------|-------------------o||-||o------|
    |-15----15-14----14-|----17----19----19-|-17----17-15----15--||-||-------|
    |----12-------12----|-15----15----15----|----15-------15-----||-||--0----|
    |-------------------|-------------------|-------------------o||-||o-0----|
    |-------------------|-------------------|--------------------||-||--0----|


    S S S S S Q.. H +Q H +Q
    |-----------------|-----------|------------||
    |-----------------|-----------|-----------o||
    |-----------------|-----------|------------||
    |-----------------|-8----(8)--|-7----(7)---||
    |-----------------|-8----(8)--|-7----(7)--o||
    |-3-2-0-2-0-------|-8----(8)--|-7----(7)---||


    S S S S S S S S S S S S S S S S S S S S S S S S H +Q
    |-------------------------|-------------------------|-------------|
    |-------------------------|-------------------------|-------------|
    |-------------------------|-------------------------|-------------|
    |-------------------------|-------------------------|-8----(8)----|
    |-------------------------|-------------------------|-8----(8)----|
    |-3-2-0-2-0-0-3-2-0-2-0-0-|-3-2-0-2-0-0-3-2-0-2-0-0-|-8----(8)----|


    D.S.
    H +Q Q H S S S S S Q.. H +Q H +Q
    |-----------|---------|-----------------|-----------|-------------|
    |-----------|---------|-----------------|-----------|-------------|
    |-----------|---------|-----------------|-----------|-------------|
    |-7----(7)--|-0-------|-----------------|-8----(8)--|-7----(7)----|
    |-7----(7)--|-0-------|-----------------|-8----(8)--|-7----(7)----|
    |-7----(7)--|-0-------|-3-2-0-2-0-------|-8----(8)--|-7----(7)----|


    $$
    S S S S S S S S S S +E 4x S E E S. S E E S
    ||-----------------------------||------------------|
    ||o---------------------------o||------------------|
    ||-----------------------------||------------------|
    ||--0---0-0-0-0-3-0-0-2b3-(2)--||-1-0-0-0--1-0-0-0-|
    ||o---------------------------o||-1-0-0-0--1-0-0-0-|
    ||-----------------------------||-1-0-0-0--1-0-0-0-|


    S E E S S E E S S E E S S E E S
    |-----------------|------------------|
    |-----------------|------------------|
    |-----------------|------------------|
    |-1-0-0-0-1-0-0-0-|-1-0-0-0-1-0-0-0--|
    |-1-0-0-0-1-0-0-0-|-1-0-0-0-1-0-0-0--|
    |-1-0-0-0-1-0-0-0-|-1-0-0-0-1-0-0-0--|


    D.S.S.
    S E E S S E E S Q H S S S S S Q.. H +Q
    |---------------------||----------|-----------------|-----------|
    |---------------------||o---------|-----------------|-----------|
    |---------------------||----------|-----------------|-----------|
    |-1--0-0-0--1--0-0-0--||--0-------|-----------------|-8----(8)--|
    |-1--0-0-0--1--0-0-0--||o-0-------|-----------------|-8----(8)--|
    |-1--0-0-0--1--0-0-0--||--0-------|-3-2-0-2-0-------|-8----(8)--|


    H +Q S S S S S S S S S S S S S S S S S S S S S S S S
    |------------||-------------------------|--------------------------|
    |-----------o||-------------------------|--------------------------|
    |------------||-------------------------|--------------------------|
    |-7----(7)---||-------------------------|--------------------------|
    |-7----(7)--o||-------------------------|--------------------------|
    |-7----(7)---||-3-2-0-2-0-0-3-2-0-2-0-0-|-3-2-0-2-0-0-3-2-0-2-0-0--|


    H +Q H +Q Q H S S S S S Q.. H +Q H +Q
    |-----------|-----------|---------|-----------------|-----------|-----------|
    |-----------|-----------|---------|-----------------|-----------|-----------|
    |-----------|-----------|---------|-----------------|-----------|-----------|
    |-8----(8)--|-7----(7)--|-0-------|-----------------|-8----(8)--|-7----(7)--|
    |-8----(8)--|-7----(7)--|-0-------|-----------------|-8----(8)--|-7----(7)--|
    |-8----(8)--|-7----(7)--|-0-------|-3-2-0-2-0-------|-8----(8)--|-7----(7)--|


    S E E S S E E S S E E S S E E S S E E S S E E S
    |-----------------|-----------------|-----------------|
    |-----------------|-----------------|-----------------|
    |-----------------|-----------------|-----------------|
    |-1-0-0-0-1-0-0-0-|-1-0-0-0-1-0-0-0-|-1-0-0-0-1-0-0-0-|
    |-1-0-0-0-1-0-0-0-|-1-0-0-0-1-0-0-0-|-1-0-0-0-1-0-0-0-|
    |-1-0-0-0-1-0-0-0-|-1-0-0-0-1-0-0-0-|-1-0-0-0-1-0-0-0-|


    S E E S S E E S S S S S S S S S S S +E
    |-----------------|-----------------------------|
    |-----------------|-----------------------------|
    |-----------------|-----------------------------|
    |-1-0-0-0-1-0-0-0-|-0---0-0-0-0-2-0-0-1---(1)---|
    |-1-0-0-0-1-0-0-0-|-0---0-0-0-0-2-0-0-1---(1)---|
    |-1-0-0-0-1-0-0-0-|-0---0-0-0-0-2-0-0-1b2-(1)---|


    S S S S S S S S S S +E S S S S S S S S S S +E
    |---------------------------|---------------------------|
    |---------------------------|---------------------------|
    |---------------------------|---------------------------|
    |-0---0-0-0-0-2-0-0-1---(1)-|-0---0-0-0-0-2-0-0-1---(1)-|
    |-0---0-0-0-0-2-0-0-1---(1)-|-0---0-0-0-0-2-0-0-1---(1)-|
    |-0---0-0-0-0-2-0-0-1b2-(1)-|-0---0-0-0-0-2-0-0-1b2-(1)-|


    S S S S S S S S S S +E
    |----------------------------*|
    |----------------------------*|
    |----------------------------*|
    |-0---0-0-0-0-2-0-0-1---(1)--*|
    |-0---0-0-0-0-2-0-0-1---(1)--*|
    |-0---0-0-0-0-2-0-0-1b2-(1)--*|

    Io li voglio far diventare con il pentagramma!!!

  11. #11
    confratello della Loggia L'avatar di M@rco
    Registrato il
    10-02
    LocalitÓ
    Cagliari
    Messaggi
    18.144
    metti importa dal men¨ file e scegli asci tab, ma non funziona sempre... ciao.
    Open wide
    and eat the worms of the enemy
    We are the enemies of reality
    in a world that's unforgiving

  12. #12
    Who is Solid Snake? L'avatar di Tony47
    Registrato il
    12-03
    LocalitÓ
    Dolinovodno!!
    Messaggi
    493
    metti importa dal men¨ file e scegli asci tab, ma non funziona sempre... ciao.
    infatti nn funziona perchŔ le mie tablature sono il formato txt. (blocco note per gli ignoranti)

  13. #13
    confratello della Loggia L'avatar di M@rco
    Registrato il
    10-02
    LocalitÓ
    Cagliari
    Messaggi
    18.144
    No aspetta, tu devi solo mettere Archivio > Importa > Asci Tab e poi devi copiare nella casella che esce tutta la tab...

    ho provato io ed esce... comunque Ŕ pi¨ semplice scaricarla da mysongbook.
    Open wide
    and eat the worms of the enemy
    We are the enemies of reality
    in a world that's unforgiving

  14. #14
    Utente L'avatar di Epyon87
    Registrato il
    07-04
    LocalitÓ
    Ferrara
    Messaggi
    2.478
    infatti gli ho dato il sito apposta perchŔ nn faccia fatica!!

  15. #15
    Il Tecnico L'avatar di danhck88
    Registrato il
    04-04
    LocalitÓ
    Busto Arsizio
    Messaggi
    12.790
    se servono tablature sul mio sito si trova qualcosa... www.thesmile.tk

Regole di Scrittura

  • Tu non puoi inviare nuove discussioni
  • Tu non puoi inviare risposte
  • Tu non puoi inviare allegati
  • Tu non puoi modificare i tuoi messaggi
  •