• In diretta da GamesVillage.it
    • News
    • -
    • In Evidenza
    • -
    • Recensioni
    • -
    • RetroGaming
    • -
    • Anteprime
    • -
    • Video
    • -
    • Cinema

Visualizzazione risultati da 1 a 10 di 10

Discussione: le nostre tabulature

Cambio titolo
  1. #1
    Utente
    Registrato il
    10-02
    Località
    fuori sede a Firenze
    Messaggi
    2.471

    le nostre tabulature

    postiamo in questo thread le tabulature che abbiamo trovato di brani che ci piacciono

    per chitarra e basso, ma volendo per altri strumenti (se riuscite a metterle sul forum)

    parto io con l'intro di Legions (Visions) degli Stratovarius, che ho trovato qualche tempo fa

    (con distorsore)

    E------------------------------------------------------
    B------------------------------------------------------
    G-----------------------------------------------------
    D-----------------------------------------------------
    A-----------7---------------------------------------
    E--0-0-0-0-----0-0-0-0-7-0-0-0-0-8-0-0-0-0-5

    E---------------------------------------------------------------
    B---------------------------------------------------------------
    G---------------------------------------------------------------
    D---------------------------------------------------------------
    A--------------------------7--------------------------------
    E--0-0-0-0--5-8-7-5-8--0-----0-0-0-0--7--0-0-0-0--8--
    (questo passaggio che ho evidenziato in colore è da farsi con legati o, meglio ancora, con tapping anulare-mignolo della mano sx)

    E------------------------
    B------------------------
    G------------------------
    D------------------------
    A---10--9--7-----------
    E---------------8--10---

    quando imparerò bene tutti i simboli della tabulatura andrà meglio

  2. #2
    .::SRT elaborazioni::. L'avatar di Simo90
    Registrato il
    02-03
    Località
    Mirandola (MO)
    Messaggi
    9.547
    non ci capisco niente nelle tabolature!

  3. #3
    Parisì allò? L'avatar di Shark107
    Registrato il
    02-03
    Località
    Vienna & Napoli
    Messaggi
    8.279

    Re: le nostre tabulature

    Inviato da antares
    postiamo in questo thread le tabulature che abbiamo trovato di brani che ci piacciono

    per chitarra e basso, ma volendo per altri strumenti (se riuscite a metterle sul forum)

    parto io con l'intro di Legions (Visions) degli Stratovarius, che ho trovato qualche tempo fa

    (con distorsore)

    E------------------------------------------------------
    B------------------------------------------------------
    G-----------------------------------------------------
    D-----------------------------------------------------
    A-----------7---------------------------------------
    E--0-0-0-0-----0-0-0-0-7-0-0-0-0-8-0-0-0-0-5

    E---------------------------------------------------------------
    B---------------------------------------------------------------
    G---------------------------------------------------------------
    D---------------------------------------------------------------
    A--------------------------7--------------------------------
    E--0-0-0-0--5-8-7-5-8--0-----0-0-0-0--7--0-0-0-0--8--
    (questo passaggio che ho evidenziato in colore è da farsi con legati o, meglio ancora, con tapping anulare-mignolo della mano sx)

    E------------------------
    B------------------------
    G------------------------
    D------------------------
    A---10--9--7-----------
    E---------------8--10---

    quando imparerò bene tutti i simboli della tabulatura andrà meglio
    x fare le legature secondo i simboli delle tab basta mettere p(pull off) e h (hammer on)

    la h corrisponde ad una legatura ascendente,mentre la p ad una legatura discendente



    nel tuo caso


    E--0-0-0-0--5-8p7p5h8-

  4. #4
    Utente
    Registrato il
    12-03
    Messaggi
    24
    Inviato da Simo90
    non ci capisco niente nelle tabolature!
    Le linee rappresentano le corde della chitarra, i numeri il tasto in cui schiacciare la corda e le lettere sono le abbreviazioni delle varie tecniche (l'h per esempio è l'hammer on, la b il bend, la s lo slide ecc.). Sono semplici come te le spiegano.

  5. #5
    Parisì allò? L'avatar di Shark107
    Registrato il
    02-03
    Località
    Vienna & Napoli
    Messaggi
    8.279
    Inviato da Connacht
    Le linee rappresentano le corde della chitarra, i numeri il tasto in cui schiacciare la corda e le lettere sono le abbreviazioni delle varie tecniche (l'h per esempio è l'hammer on, la b il bend, la s lo slide ecc.). Sono semplici come te le spiegano.
    ecco

  6. #6
    Oltremodo sconveniente L'avatar di pity
    Registrato il
    11-03
    Località
    Napoli
    Messaggi
    32.108
    bene ne approfitto per fare una richiesta: se qualcuno sa dove trovare gli assoli dei Love potrebbe postarli qui, oppure semplicemente dirmi dove trovarli? non ci sono nè su olga nè su guitaretabs
    Dice che c'è rimasto sulo 'o mare | Io sono la gomma, tu la colla

  7. #7
    Lisergic Acid Dietylamide
    Registrato il
    10-02
    Località
    Rieti
    Messaggi
    8.047
    AHHHHHH!!!! Le tablature ! il caro vecchio modo svogliato di imparare le canzoni !





    "...la medicina è la più diffusa delle malattie ereditarie"
    -D. Pennac-

  8. #8
    Utente
    Registrato il
    10-02
    Località
    fuori sede a Firenze
    Messaggi
    2.471
    grazie della spiegazione shark!
    piso, io sto studiando teoria e scrittura musicale, le tabulature sono comode non chè quelle più facilmente trasportabili su internet

    ...ah, BUON ANNO

  9. #9
    Utente L'avatar di Alebass_89
    Registrato il
    06-03
    Località
    Cavalese
    Messaggi
    4.282
    Inviato da antares
    grazie della spiegazione shark!
    piso, io sto studiando teoria e scrittura musicale, le tabulature sono comode non chè quelle più facilmente trasportabili su internet

    ...ah, BUON ANNO
    Ma la maggior parte delle tab che trovi su internet sono sbagliate

  10. #10
    Utente
    Registrato il
    10-02
    Località
    fuori sede a Firenze
    Messaggi
    2.471
    intendevo dire "trasportabili su questo forum", ale
    è di certo più facile trascriverci una tabulatura che una partitura

    del resto, hai ragione, a volte le tabs sono proprio sconclusionate! ma non sempre
    qui comunque postiamo quelle che abbiamo trovato noi, altrimenti che senso ha se le si prendono da internet

Regole di Scrittura

  • Tu non puoi inviare nuove discussioni
  • Tu non puoi inviare risposte
  • Tu non puoi inviare allegati
  • Tu non puoi modificare i tuoi messaggi
  •